Johan Paxoms Guitar
Johan Paxoms Guitar
  • Followers 3
  • Following 7
  • Updates 27

Paxom´s Etude; The Three Norns (tabulature)

(Paxom´s Etude wav.file will be found in the "Audio "section´ s in the Profilepage regarding Johan Paxoms Guitar.)

URD

E|--------------0--8--7--5---------------0--10--8--7----------------0--12--10--8----------------
B|--0--5--7--8--------------0--7--8--10---------------0--8--10--12----------------0--10--12--13-
G|----------------------------------------------------------------------------------------------
D|----------------------------------------------------------------------------------------------
A|----------------------------------------------------------------------------------------------
E|----------------------------------------------------------------------------------------------

E|---0--13--12--10-----------------0--15--13--12-----------------0--17--15--13--12--5--7--
B|------------------0--12--13--15-----------------0--13--15--17---------------------------
G|----------------------------------------------------------------------------------------
D|----------------------------------------------------------------------------------------
A|----------------------------------------------------------------------------------------
E|----------------------------------------------------------------------------------------

SKULD

E|--5--7--8--0--------------7--8--10--0---------------8--10--12--0----------------10--12--13--0-
B|--------------8--7--5--0---------------10--8--7--0----------------12--10--8--0----------------
G|----------------------------------------------------------------------------------------------
D|----------------------------------------------------------------------------------------------
A|----------------------------------------------------------------------------------------------
E|----------------------------------------------------------------------------------------------

E|------------------12--13--15--0-----------------13--15--17--0--------------12--------------
B|----13--12--10--0----------------15--13--12--0-----------------17--15--13------13----------
G|-----------------------------------------------------------------------------------12--13--
D|-------------------------------------------------------------------------------------------
A|-------------------------------------------------------------------------------------------
E|-------------------------------------------------------------------------------------------

VERDANDI

E|--0--5--7--------------10--0--8--10-----------------13--0--12--13-----------------17--0--15--17-
B|-----------8--0--7--8----------------12--0--10--12-----------------15--0--13--15----------------
G|------------------------------------------------------------------------------------------------
D|------------------------------------------------------------------------------------------------
A|------------------------------------------------------------------------------------------------
E|--5---------------------------------------------------------------------------------------------

E|------------------20--0--18--20-----------------22---------------24
B|---18--0--17--18-----------------20--0--18--20------0--20--22--
G|---------------------------------------------------------------
D|---------------------------------------------------------------
A|---------------------------------------------------------------
E|---------------------------------------------------------------

by Paxom, 2019.

jrRating_form: item_id not set correctly